  0
SECTION
  2
HEADER
  9
$ACADVER
  1
AC1006
  9
$AXISMODE
 70
     0
  9
$AXISUNIT
 10
0.0625
 20
0.0625
  9
$CECOLOR
 62
0
  9
$CELTYPE
  6
CONTINUOUS
  9
$CLAYER
  8
LAYER1
  9
$EXTMIN
 10
0
 20
0
  9
$EXTMAX
 10
7.6667
 20
10.8728
  9
$LIMMIN
 10
0
 20
0
  9
$LIMMAX
 10
7.6667
 20
10.8728
  9
$GRIDMODE
 70
     0
  9
$GRIDUNIT
 10
0.125
 20
0.125
  9
$MIRRTEXT
 70
     1
  9
$SNAPMODE
 70
     1
  9
$SNAPUNIT
 10
0.125
 20
0
  9
$SNAPSTYLE
 70
     0
  9
$SPLINESEGS
 70
     8
  9
$SPLINETYPE
 70
     6
  0
ENDSEC
  0
SECTION
  2
TABLES
  0TABLE  2VPORT 70     2  0VPORT  2*ACTIVE 70     0 100.0 200.0 111.0 211.0 1213.01087 224.5 130.0 230.0 141.0 241.0 150.0 250.0 160.0 260.0 361.0 170.0 270.0 370.0 409.0 412.891304 4250.0 430.0 440.0 500.0 510.0 71     0 72   100 73     1 74     1 75     0 76     0 77     0 78     0  0ENDTAB
  0
TABLE
  2
LTYPE
 70
     1
  0
LTYPE
  2
CONTINUOUS
 70
    64
  3
Descriptive Text
 72
    65
 73
     0
 40
0
  0
ENDTAB
  0
TABLE
  2
LAYER
 70
     1
  0
LAYER
  2
LAYER1
 70
     0
 62
     7
  6
CONTINUOUS
  0
ENDTAB
  0TABLE  2STYLE 70     1  0STYLE  2STANDARD 70     0 400.0 411.0 500.0 71     0 420.2  3txt  4  0ENDTAB
  0
TABLE
  2
VIEW
 70
     0
  0
ENDTAB
  0
TABLE
  2
UCS
 70
     0
  0
ENDTAB
  0
TABLE
  2
DWGMGR
 70
     0
  0
ENDTAB
  0
ENDSEC
  0
SECTION
  2
BLOCKS
  0
BLOCK
  8
LAYER1
  2
Group1
 70
     0
 10
0
 20
0
 30
0
  0
LINE
  8
LAYER1
  6
CONTINUOUS
 62
     7
 10
0.2222
 20
10.5256
 30
0
 11
4.7222
 21
10.5256
 31
0
  0
LINE
  8
LAYER1
  6
CONTINUOUS
 62
     7
 10
2.9306
 20
9.2617
 30
0
 11
3.2639
 21
9.2617
 31
0
  0
POLYLINE
  8
LAYER1
  6
CONTINUOUS
 62
     7
 66
     1
 70
     0
 40
0.001
 41
0.001
  0
VERTEX
  8
LAYER1
 10
3.0556
 20
9.2339
 30
0
 70
     0
  0
VERTEX
  8
LAYER1
 10
3.0717
 20
9.2306
 30
0
 70
     0
  0
VERTEX
  8
LAYER1
 10
3.085
 20
9.2217
 30
0
 70
     0
  0
VERTEX
  8
LAYER1
 10
3.0939
 20
9.2084
 30
0
 70
     0
  0
VERTEX
  8
LAYER1
 10
3.0972
 20
9.1923
 30
0
 70
     0
  0
SEQEND
  0
LINE
  8
LAYER1
  6
CONTINUOUS
 62
     7
 10
3.0833
 20
9.2062
 30
0
 11
3.0833
 21
8.6784
 31
0
  0
LINE
  8
LAYER1
  6
CONTINUOUS
 62
     7
 10
2.9306
 20
9.2339
 30
0
 11
3.0556
 21
9.2339
 31
0
  0
POLYLINE
  8
LAYER1
  6
CONTINUOUS
 62
     7
 66
     1
 70
     0
 40
0.001
 41
0.001
  0
VERTEX
  8
LAYER1
 10
3.0972
 20
9.1923
 30
0
 70
     0
  0
VERTEX
  8
LAYER1
 10
3.1005
 20
9.2084
 30
0
 70
     0
  0
VERTEX
  8
LAYER1
 10
3.1095
 20
9.2217
 30
0
 70
     0
  0
VERTEX
  8
LAYER1
 10
3.1227
 20
9.2306
 30
0
 70
     0
  0
VERTEX
  8
LAYER1
 10
3.1389
 20
9.2339
 30
0
 70
     0
  0
SEQEND
  0
LINE
  8
LAYER1
  6
CONTINUOUS
 62
     7
 10
3.0972
 20
9.2062
 30
0
 11
3.0972
 21
8.6784
 31
0
  0
LINE
  8
LAYER1
  6
CONTINUOUS
 62
     7
 10
3.125
 20
9.2339
 30
0
 11
3.2639
 21
9.2339
 31
0
  0
LINE
  8
LAYER1
  6
CONTINUOUS
 62
     7
 10
2.9306
 20
9.2339
 30
0
 11
2.9306
 21
9.2617
 31
0
  0
LINE
  8
LAYER1
  6
CONTINUOUS
 62
     7
 10
3.2639
 20
9.2339
 30
0
 11
3.2639
 21
9.2617
 31
0
  0
ENDBLK
  8
LAYER1
  0
BLOCK
  8
LAYER1
  2
Group2
 70
     0
 10
0
 20
0
 30
0
  0
LINE
  8
LAYER1
  6
CONTINUOUS
 62
     7
 10
3.0972
 20
8.6784
 30
0
 11
3.0833
 21
8.6784
 31
0
  0
LINE
  8
LAYER1
  6
CONTINUOUS
 62
     7
 10
3.0833
 20
8.7895
 30
0
 11
3.0972
 21
8.8034
 31
0
  0
LINE
  8
LAYER1
  6
CONTINUOUS
 62
     7
 10
3.0833
 20
8.9145
 30
0
 11
3.0972
 21
8.9423
 31
0
  0
LINE
  8
LAYER1
  6
CONTINUOUS
 62
     7
 10
3.0833
 20
9.0534
 30
0
 11
3.0972
 21
9.0673
 31
0
  0
LINE
  8
LAYER1
  6
CONTINUOUS
 62
     7
 10
3.0833
 20
9.1784
 30
0
 11
3.0972
 21
9.2062
 31
0
  0
LINE
  8
LAYER1
  6
CONTINUOUS
 62
     7
 10
3.125
 20
9.2339
 30
0
 11
3.1528
 21
9.2617
 31
0
  0
LINE
  8
LAYER1
  6
CONTINUOUS
 62
     7
 10
3
 20
9.2339
 30
0
 11
3.0278
 21
9.2617
 31
0
  0
LINE
  8
LAYER1
  6
CONTINUOUS
 62
     7
 10
3.0833
 20
8.7478
 30
0
 11
3.0972
 21
8.7617
 31
0
  0
LINE
  8
LAYER1
  6
CONTINUOUS
 62
     7
 10
3.0833
 20
8.8728
 30
0
 11
3.0972
 21
8.8867
 31
0
  0
LINE
  8
LAYER1
  6
CONTINUOUS
 62
     7
 10
3.0833
 20
9.0117
 30
0
 11
3.0972
 21
9.0256
 31
0
  0
LINE
  8
LAYER1
  6
CONTINUOUS
 62
     7
 10
3.0833
 20
9.1367
 30
0
 11
3.0972
 21
9.1506
 31
0
  0
LINE
  8
LAYER1
  6
CONTINUOUS
 62
     7
 10
3.1806
 20
9.2339
 30
0
 11
3.1944
 21
9.2617
 31
0
  0
LINE
  8
LAYER1
  6
CONTINUOUS
 62
     7
 10
3.0417
 20
9.2339
 30
0
 11
3.0694
 21
9.2617
 31
0
  0
ENDBLK
  8
LAYER1
  0
BLOCK
  8
LAYER1
  2
Group3
 70
     0
 10
0
 20
0
 30
0
  0
INSERT
  8
LAYER1
  2
Group1
 10
0
 20
0
 30
0
  0
INSERT
  8
LAYER1
  2
Group2
 10
0
 20
0
 30
0
  0
ENDBLK
  8
LAYER1
  0
BLOCK
  8
LAYER1
  2
Group4
 70
     0
 10
0
 20
0
 30
0
  0
LINE
  8
LAYER1
  6
CONTINUOUS
 62
     7
 10
2.9306
 20
9.2478
 30
0
 11
2.9306
 21
9.2617
 31
0
  0
LINE
  8
LAYER1
  6
CONTINUOUS
 62
     7
 10
2.9583
 20
7.7617
 30
0
 11
3.2222
 21
7.7617
 31
0
  0
POLYLINE
  8
LAYER1
  6
CONTINUOUS
 62
     7
 66
     1
 70
     0
 40
0.001
 41
0.001
  0
VERTEX
  8
LAYER1
 10
3.0625
 20
7.7339
 30
0
 70
     0
  0
VERTEX
  8
LAYER1
 10
3.076
 20
7.7312
 30
0
 70
     0
  0
VERTEX
  8
LAYER1
 10
3.087
 20
7.7237
 30
0
 70
     0
  0
VERTEX
  8
LAYER1
 10
3.0945
 20
7.7127
 30
0
 70
     0
  0
VERTEX
  8
LAYER1
 10
3.0972
 20
7.6992
 30
0
 70
     0
  0
SEQEND
  0
LINE
  8
LAYER1
  6
CONTINUOUS
 62
     7
 10
2.9583
 20
7.7339
 30
0
 11
3.0556
 21
7.7339
 31
0
  0
LINE
  8
LAYER1
  6
CONTINUOUS
 62
     7
 10
3.0833
 20
7.7062
 30
0
 11
3.0833
 21
7.2617
 31
0
  0
POLYLINE
  8
LAYER1
  6
CONTINUOUS
 62
     7
 66
     1
 70
     0
 40
0.001
 41
0.001
  0
VERTEX
  8
LAYER1
 10
3.0972
 20
7.6992
 30
0
 70
     0
  0
VERTEX
  8
LAYER1
 10
3.1
 20
7.7127
 30
0
 70
     0
  0
VERTEX
  8
LAYER1
 10
3.1074
 20
7.7237
 30
0
 70
     0
  0
VERTEX
  8
LAYER1
 10
3.1185
 20
7.7312
 30
0
 70
     0
  0
VERTEX
  8
LAYER1
 10
3.1319
 20
7.7339
 30
0
 70
     0
  0
SEQEND
  0
LINE
  8
LAYER1
  6
CONTINUOUS
 62
     7
 10
3.125
 20
7.7339
 30
0
 11
3.2222
 21
7.7339
 31
0
  0
LINE
  8
LAYER1
  6
CONTINUOUS
 62
     7
 10
3.0972
 20
7.7062
 30
0
 11
3.0972
 21
7.2617
 31
0
  0
LINE
  8
LAYER1
  6
CONTINUOUS
 62
     7
 10
2.9583
 20
7.7339
 30
0
 11
2.9583
 21
7.7617
 31
0
  0
LINE
  8
LAYER1
  6
CONTINUOUS
 62
     7
 10
3.2222
 20
7.7339
 30
0
 11
3.2222
 21
7.7617
 31
0
  0
ENDBLK
  8
LAYER1
  0
BLOCK
  8
LAYER1
  2
Group5
 70
     0
 10
0
 20
0
 30
0
  0
LINE
  8
LAYER1
  6
CONTINUOUS
 62
     7
 10
3.0833
 20
7.2617
 30
0
 11
3.0972
 21
7.2617
 31
0
  0
LINE
  8
LAYER1
  6
CONTINUOUS
 62
     7
 10
3.0833
 20
7.2756
 30
0
 11
3.0972
 21
7.2895
 31
0
  0
LINE
  8
LAYER1
  6
CONTINUOUS
 62
     7
 10
3.0833
 20
7.4006
 30
0
 11
3.0972
 21
7.4145
 31
0
  0
LINE
  8
LAYER1
  6
CONTINUOUS
 62
     7
 10
3.0833
 20
7.5395
 30
0
 11
3.0972
 21
7.5534
 31
0
  0
LINE
  8
LAYER1
  6
CONTINUOUS
 62
     7
 10
3.0833
 20
7.6645
 30
0
 11
3.0972
 21
7.6784
 31
0
  0
LINE
  8
LAYER1
  6
CONTINUOUS
 62
     7
 10
3.1528
 20
7.7339
 30
0
 11
3.1667
 21
7.7617
 31
0
  0
LINE
  8
LAYER1
  6
CONTINUOUS
 62
     7
 10
3.0139
 20
7.7339
 30
0
 11
3.0417
 21
7.7617
 31
0
  0
LINE
  8
LAYER1
  6
CONTINUOUS
 62
     7
 10
3.0833
 20
7.3589
 30
0
 11
3.0972
 21
7.3728
 31
0
  0
LINE
  8
LAYER1
  6
CONTINUOUS
 62
     7
 10
3.0833
 20
7.4839
 30
0
 11
3.0972
 21
7.4978
 31
0
  0
LINE
  8
LAYER1
  6
CONTINUOUS
 62
     7
 10
3.0833
 20
7.6228
 30
0
 11
3.0972
 21
7.6367
 31
0
  0
LINE
  8
LAYER1
  6
CONTINUOUS
 62
     7
 10
3.1944
 20
7.7339
 30
0
 11
3.2222
 21
7.7617
 31
0
  0
ENDBLK
  8
LAYER1
  0
BLOCK
  8
LAYER1
  2
Group6
 70
     0
 10
0
 20
0
 30
0
  0
INSERT
  8
LAYER1
  2
Group4
 10
0
 20
0
 30
0
  0
INSERT
  8
LAYER1
  2
Group5
 10
0
 20
0
 30
0
  0
ENDBLK
  8
LAYER1
  0
BLOCK
  8
LAYER1
  2
Group7
 70
     0
 10
0
 20
0
 30
0
  0
LINE
  8
LAYER1
  6
CONTINUOUS
 62
     7
 10
3.0694
 20
7.7339
 30
0
 11
3.0833
 21
7.7617
 31
0
  0
LINE
  8
LAYER1
  6
CONTINUOUS
 62
     7
 10
2.9722
 20
6.3034
 30
0
 11
3.2083
 21
6.3034
 31
0
  0
POLYLINE
  8
LAYER1
  6
CONTINUOUS
 62
     7
 66
     1
 70
     0
 40
0.001
 41
0.001
  0
VERTEX
  8
LAYER1
 10
3.0972
 20
6.2339
 30
0
 70
     0
  0
VERTEX
  8
LAYER1
 10
3.1005
 20
6.2501
 30
0
 70
     0
  0
VERTEX
  8
LAYER1
 10
3.1095
 20
6.2633
 30
0
 70
     0
  0
VERTEX
  8
LAYER1
 10
3.1227
 20
6.2723
 30
0
 70
     0
  0
VERTEX
  8
LAYER1
 10
3.1389
 20
6.2756
 30
0
 70
     0
  0
SEQEND
  0
LINE
  8
LAYER1
  6
CONTINUOUS
 62
     7
 10
3.125
 20
6.2756
 30
0
 11
3.2083
 21
6.2756
 31
0
  0
LINE
  8
LAYER1
  6
CONTINUOUS
 62
     7
 10
3.0972
 20
6.2478
 30
0
 11
3.0972
 21
5.8867
 31
0
  0
POLYLINE
  8
LAYER1
  6
CONTINUOUS
 62
     7
 66
     1
 70
     0
 40
0.001
 41
0.001
  0
VERTEX
  8
LAYER1
 10
3.0694
 20
6.2756
 30
0
 70
     0
  0
VERTEX
  8
LAYER1
 10
3.0856
 20
6.2723
 30
0
 70
     0
  0
VERTEX
  8
LAYER1
 10
3.0988
 20
6.2633
 30
0
 70
     0
  0
VERTEX
  8
LAYER1
 10
3.1078
 20
6.2501
 30
0
 70
     0
  0
VERTEX
  8
LAYER1
 10
3.1111
 20
6.2339
 30
0
 70
     0
  0
SEQEND
  0
LINE
  8
LAYER1
  6
CONTINUOUS
 62
     7
 10
2.9722
 20
6.2756
 30
0
 11
3.0556
 21
6.2756
 31
0
  0
LINE
  8
LAYER1
  6
CONTINUOUS
 62
     7
 10
3.0833
 20
6.2478
 30
0
 11
3.0833
 21
5.8867
 31
0
  0
LINE
  8
LAYER1
  6
CONTINUOUS
 62
     7
 10
2.9722
 20
6.2756
 30
0
 11
2.9722
 21
6.3034
 31
0
  0
LINE
  8
LAYER1
  6
CONTINUOUS
 62
     7
 10
3.2083
 20
6.3034
 30
0
 11
3.2083
 21
6.2756
 31
0
  0
ENDBLK
  8
LAYER1
  0
BLOCK
  8
LAYER1
  2
Group8
 70
     0
 10
0
 20
0
 30
0
  0
LINE
  8
LAYER1
  6
CONTINUOUS
 62
     7
 10
3.0972
 20
5.8867
 30
0
 11
3.0833
 21
5.8867
 31
0
  0
LINE
  8
LAYER1
  6
CONTINUOUS
 62
     7
 10
3.0833
 20
5.9006
 30
0
 11
3.0972
 21
5.9145
 31
0
  0
LINE
  8
LAYER1
  6
CONTINUOUS
 62
     7
 10
3.0833
 20
6.0395
 30
0
 11
3.0972
 21
6.0534
 31
0
  0
LINE
  8
LAYER1
  6
CONTINUOUS
 62
     7
 10
3.0833
 20
6.1645
 30
0
 11
3.0972
 21
6.1784
 31
0
  0
LINE
  8
LAYER1
  6
CONTINUOUS
 62
     7
 10
3.1944
 20
6.2756
 30
0
 11
3.2083
 21
6.2895
 31
0
  0
LINE
  8
LAYER1
  6
CONTINUOUS
 62
     7
 10
3.0556
 20
6.2756
 30
0
 11
3.0833
 21
6.3034
 31
0
  0
LINE
  8
LAYER1
  6
CONTINUOUS
 62
     7
 10
3.0833
 20
5.9978
 30
0
 11
3.0972
 21
5.9978
 31
0
  0
LINE
  8
LAYER1
  6
CONTINUOUS
 62
     7
 10
3.0833
 20
6.1228
 30
0
 11
3.0972
 21
6.1367
 31
0
  0
LINE
  8
LAYER1
  6
CONTINUOUS
 62
     7
 10
3.0833
 20
6.2617
 30
0
 11
3.125
 21
6.3034
 31
0
  0
ENDBLK
  8
LAYER1
  0
BLOCK
  8
LAYER1
  2
Group9
 70
     0
 10
0
 20
0
 30
0
  0
INSERT
  8
LAYER1
  2
Group7
 10
0
 20
0
 30
0
  0
INSERT
  8
LAYER1
  2
Group8
 10
0
 20
0
 30
0
  0
ENDBLK
  8
LAYER1
  0
BLOCK
  8
LAYER1
  2
Group10
 70
     0
 10
0
 20
0
 30
0
  0
LINE
  8
LAYER1
  6
CONTINUOUS
 62
     7
 10
2.9722
 20
6.2895
 30
0
 11
2.9861
 21
6.3034
 31
0
  0
LINE
  8
LAYER1
  6
CONTINUOUS
 62
     7
 10
3
 20
4.7617
 30
0
 11
3.1806
 21
4.7617
 31
0
  0
POLYLINE
  8
LAYER1
  6
CONTINUOUS
 62
     7
 66
     1
 70
     0
 40
0.001
 41
0.001
  0
VERTEX
  8
LAYER1
 10
3.0625
 20
4.7339
 30
0
 70
     0
  0
VERTEX
  8
LAYER1
 10
3.076
 20
4.7312
 30
0
 70
     0
  0
VERTEX
  8
LAYER1
 10
3.087
 20
4.7237
 30
0
 70
     0
  0
VERTEX
  8
LAYER1
 10
3.0945
 20
4.7127
 30
0
 70
     0
  0
VERTEX
  8
LAYER1
 10
3.0972
 20
4.6992
 30
0
 70
     0
  0
SEQEND
  0
LINE
  8
LAYER1
  6
CONTINUOUS
 62
     7
 10
3.0833
 20
4.7201
 30
0
 11
3.0833
 21
4.4284
 31
0
  0
LINE
  8
LAYER1
  6
CONTINUOUS
 62
     7
 10
3
 20
4.7339
 30
0
 11
3.0556
 21
4.7339
 31
0
  0
POLYLINE
  8
LAYER1
  6
CONTINUOUS
 62
     7
 66
     1
 70
     0
 40
0.001
 41
0.001
  0
VERTEX
  8
LAYER1
 10
3.0972
 20
4.6992
 30
0
 70
     0
  0
VERTEX
  8
LAYER1
 10
3.1
 20
4.7127
 30
0
 70
     0
  0
VERTEX
  8
LAYER1
 10
3.1074
 20
4.7237
 30
0
 70
     0
  0
VERTEX
  8
LAYER1
 10
3.1185
 20
4.7312
 30
0
 70
     0
  0
VERTEX
  8
LAYER1
 10
3.1319
 20
4.7339
 30
0
 70
     0
  0
SEQEND
  0
LINE
  8
LAYER1
  6
CONTINUOUS
 62
     7
 10
3.125
 20
4.7339
 30
0
 11
3.1806
 21
4.7339
 31
0
  0
LINE
  8
LAYER1
  6
CONTINUOUS
 62
     7
 10
3.0972
 20
4.7201
 30
0
 11
3.0972
 21
4.4284
 31
0
  0
LINE
  8
LAYER1
  6
CONTINUOUS
 62
     7
 10
3
 20
4.7339
 30
0
 11
3
 21
4.7617
 31
0
  0
LINE
  8
LAYER1
  6
CONTINUOUS
 62
     7
 10
3.1806
 20
4.7339
 30
0
 11
3.1806
 21
4.7617
 31
0
  0
ENDBLK
  8
LAYER1
  0
BLOCK
  8
LAYER1
  2
Group11
 70
     0
 10
0
 20
0
 30
0
  0
LINE
  8
LAYER1
  6
CONTINUOUS
 62
     7
 10
3.0972
 20
4.4284
 30
0
 11
3.0833
 21
4.4284
 31
0
  0
LINE
  8
LAYER1
  6
CONTINUOUS
 62
     7
 10
3.0833
 20
4.4839
 30
0
 11
3.0972
 21
4.4978
 31
0
  0
LINE
  8
LAYER1
  6
CONTINUOUS
 62
     7
 10
3.0833
 20
4.6228
 30
0
 11
3.0972
 21
4.6367
 31
0
  0
LINE
  8
LAYER1
  6
CONTINUOUS
 62
     7
 10
3.0694
 20
4.7339
 30
0
 11
3.0972
 21
4.7617
 31
0
  0
LINE
  8
LAYER1
  6
CONTINUOUS
 62
     7
 10
3.0833
 20
4.4423
 30
0
 11
3.0972
 21
4.4562
 31
0
  0
LINE
  8
LAYER1
  6
CONTINUOUS
 62
     7
 10
3.0833
 20
4.5673
 30
0
 11
3.0972
 21
4.5812
 31
0
  0
LINE
  8
LAYER1
  6
CONTINUOUS
 62
     7
 10
3.0833
 20
4.7062
 30
0
 11
3.0972
 21
4.7201
 31
0
  0
LINE
  8
LAYER1
  6
CONTINUOUS
 62
     7
 10
3.125
 20
4.7339
 30
0
 11
3.1389
 21
4.7617
 31
0
  0
ENDBLK
  8
LAYER1
  0
BLOCK
  8
LAYER1
  2
Group12
 70
     0
 10
0
 20
0
 30
0
  0
INSERT
  8
LAYER1
  2
Group10
 10
0
 20
0
 30
0
  0
INSERT
  8
LAYER1
  2
Group11
 10
0
 20
0
 30
0
  0
ENDBLK
  8
LAYER1
  0
BLOCK
  8
LAYER1
  2
Group13
 70
     0
 10
0
 20
0
 30
0
  0
LINE
  8
LAYER1
  6
CONTINUOUS
 62
     7
 10
3
 20
4.7478
 30
0
 11
3
 21
4.7617
 31
0
  0
LINE
  8
LAYER1
  6
CONTINUOUS
 62
     7
 10
3.0139
 20
3.4423
 30
0
 11
3.1667
 21
3.4423
 31
0
  0
POLYLINE
  8
LAYER1
  6
CONTINUOUS
 62
     7
 66
     1
 70
     0
 40
0.001
 41
0.001
  0
VERTEX
  8
LAYER1
 10
3.0694
 20
3.4284
 30
0
 70
     0
  0
VERTEX
  8
LAYER1
 10
3.089
 20
3.4202
 30
0
 70
     0
  0
VERTEX
  8
LAYER1
 10
3.0972
 20
3.4006
 30
0
 70
     0
  0
SEQEND
  0
LINE
  8
LAYER1
  6
CONTINUOUS
 62
     7
 10
3.0139
 20
3.4284
 30
0
 11
3.0694
 21
3.4284
 31
0
  0
LINE
  8
LAYER1
  6
CONTINUOUS
 62
     7
 10
3.0833
 20
3.4145
 30
0
 11
3.0833
 21
3.1923
 31
0
  0
POLYLINE
  8
LAYER1
  6
CONTINUOUS
 62
     7
 66
     1
 70
     0
 40
0.001
 41
0.001
  0
VERTEX
  8
LAYER1
 10
3.0972
 20
3.4006
 30
0
 70
     0
  0
VERTEX
  8
LAYER1
 10
3.1054
 20
3.4202
 30
0
 70
     0
  0
VERTEX
  8
LAYER1
 10
3.125
 20
3.4284
 30
0
 70
     0
  0
SEQEND
  0
LINE
  8
LAYER1
  6
CONTINUOUS
 62
     7
 10
3.1111
 20
3.4284
 30
0
 11
3.1667
 21
3.4284
 31
0
  0
LINE
  8
LAYER1
  6
CONTINUOUS
 62
     7
 10
3.0972
 20
3.4145
 30
0
 11
3.0972
 21
3.1923
 31
0
  0
LINE
  8
LAYER1
  6
CONTINUOUS
 62
     7
 10
3.0139
 20
3.4284
 30
0
 11
3.0139
 21
3.4423
 31
0
  0
LINE
  8
LAYER1
  6
CONTINUOUS
 62
     7
 10
3.1667
 20
3.4284
 30
0
 11
3.1667
 21
3.4423
 31
0
  0
ENDBLK
  8
LAYER1
  0
BLOCK
  8
LAYER1
  2
Group14
 70
     0
 10
0
 20
0
 30
0
  0
LINE
  8
LAYER1
  6
CONTINUOUS
 62
     7
 10
3.0972
 20
3.1923
 30
0
 11
3.0833
 21
3.1923
 31
0
  0
LINE
  8
LAYER1
  6
CONTINUOUS
 62
     7
 10
3.0833
 20
3.2756
 30
0
 11
3.0972
 21
3.2895
 31
0
  0
LINE
  8
LAYER1
  6
CONTINUOUS
 62
     7
 10
3.0833
 20
3.4006
 30
0
 11
3.0972
 21
3.4145
 31
0
  0
LINE
  8
LAYER1
  6
CONTINUOUS
 62
     7
 10
3.1111
 20
3.4284
 30
0
 11
3.125
 21
3.4423
 31
0
  0
LINE
  8
LAYER1
  6
CONTINUOUS
 62
     7
 10
3.0833
 20
3.2339
 30
0
 11
3.0972
 21
3.2339
 31
0
  0
LINE
  8
LAYER1
  6
CONTINUOUS
 62
     7
 10
3.0833
 20
3.3589
 30
0
 11
3.0972
 21
3.3728
 31
0
  0
LINE
  8
LAYER1
  6
CONTINUOUS
 62
     7
 10
3.1528
 20
3.4284
 30
0
 11
3.1667
 21
3.4423
 31
0
  0
ENDBLK
  8
LAYER1
  0
BLOCK
  8
LAYER1
  2
Group15
 70
     0
 10
0
 20
0
 30
0
  0
INSERT
  8
LAYER1
  2
Group13
 10
0
 20
0
 30
0
  0
INSERT
  8
LAYER1
  2
Group14
 10
0
 20
0
 30
0
  0
ENDBLK
  8
LAYER1
  0
BLOCK
  8
LAYER1
  2
Group16
 70
     0
 10
0
 20
0
 30
0
  0
LINE
  8
LAYER1
  6
CONTINUOUS
 62
     7
 10
3.0139
 20
3.4284
 30
0
 11
3.0278
 21
3.4423
 31
0
  0
LINE
  8
LAYER1
  6
CONTINUOUS
 62
     7
 10
2.875
 20
2.2201
 30
0
 11
3.3056
 21
2.2201
 31
0
  0
POLYLINE
  8
LAYER1
  6
CONTINUOUS
 62
     7
 66
     1
 70
     0
 40
0.001
 41
0.001
  0
VERTEX
  8
LAYER1
 10
3.0417
 20
2.1784
 30
0
 70
     0
  0
VERTEX
  8
LAYER1
 10
3.0578
 20
2.1751
 30
0
 70
     0
  0
VERTEX
  8
LAYER1
 10
3.0711
 20
2.1661
 30
0
 70
     0
  0
VERTEX
  8
LAYER1
 10
3.08
 20
2.1529
 30
0
 70
     0
  0
VERTEX
  8
LAYER1
 10
3.0833
 20
2.1367
 30
0
 70
     0
  0
SEQEND
  0
LINE
  8
LAYER1
  6
CONTINUOUS
 62
     7
 10
2.875
 20
2.1784
 30
0
 11
3.0417
 21
2.1784
 31
0
  0
LINE
  8
LAYER1
  6
CONTINUOUS
 62
     7
 10
3.0833
 20
2.1367
 30
0
 11
3.0833
 21
2.0117
 31
0
  0
POLYLINE
  8
LAYER1
  6
CONTINUOUS
 62
     7
 66
     1
 70
     0
 40
0.001
 41
0.001
  0
VERTEX
  8
LAYER1
 10
3.0972
 20
2.1367
 30
0
 70
     0
  0
VERTEX
  8
LAYER1
 10
3.1005
 20
2.1529
 30
0
 70
     0
  0
VERTEX
  8
LAYER1
 10
3.1095
 20
2.1661
 30
0
 70
     0
  0
VERTEX
  8
LAYER1
 10
3.1227
 20
2.1751
 30
0
 70
     0
  0
VERTEX
  8
LAYER1
 10
3.1389
 20
2.1784
 30
0
 70
     0
  0
SEQEND
  0
LINE
  8
LAYER1
  6
CONTINUOUS
 62
     7
 10
3.1389
 20
2.1784
 30
0
 11
3.3056
 21
2.1784
 31
0
  0
LINE
  8
LAYER1
  6
CONTINUOUS
 62
     7
 10
3.0972
 20
2.1367
 30
0
 11
3.0972
 21
2.0117
 31
0
  0
LINE
  8
LAYER1
  6
CONTINUOUS
 62
     7
 10
2.875
 20
2.1784
 30
0
 11
2.875
 21
2.2201
 31
0
  0
LINE
  8
LAYER1
  6
CONTINUOUS
 62
     7
 10
3.3056
 20
2.1784
 30
0
 11
3.3056
 21
2.2201
 31
0
  0
ENDBLK
  8
LAYER1
  0
BLOCK
  8
LAYER1
  2
Group17
 70
     0
 10
0
 20
0
 30
0
  0
LINE
  8
LAYER1
  6
CONTINUOUS
 62
     7
 10
3.0972
 20
2.0117
 30
0
 11
3.0833
 21
2.0117
 31
0
  0
LINE
  8
LAYER1
  6
CONTINUOUS
 62
     7
 10
3.0833
 20
2.0673
 30
0
 11
3.0972
 21
2.0951
 31
0
  0
LINE
  8
LAYER1
  6
CONTINUOUS
 62
     7
 10
3.1944
 20
2.1784
 30
0
 11
3.2222
 21
2.2201
 31
0
  0
LINE
  8
LAYER1
  6
CONTINUOUS
 62
     7
 10
3.0556
 20
2.1784
 30
0
 11
3.0972
 21
2.2201
 31
0
  0
LINE
  8
LAYER1
  6
CONTINUOUS
 62
     7
 10
2.9306
 20
2.1784
 30
0
 11
2.9583
 21
2.2201
 31
0
  0
LINE
  8
LAYER1
  6
CONTINUOUS
 62
     7
 10
3.0833
 20
2.0256
 30
0
 11
3.0972
 21
2.0395
 31
0
  0
LINE
  8
LAYER1
  6
CONTINUOUS
 62
     7
 10
3.2361
 20
2.1784
 30
0
 11
3.2778
 21
2.2201
 31
0
  0
LINE
  8
LAYER1
  6
CONTINUOUS
 62
     7
 10
3.0694
 20
2.1506
 30
0
 11
3.1389
 21
2.2201
 31
0
  0
ENDBLK
  8
LAYER1
  0
BLOCK
  8
LAYER1
  2
Group18
 70
     0
 10
0
 20
0
 30
0
  0
INSERT
  8
LAYER1
  2
Group16
 10
0
 20
0
 30
0
  0
INSERT
  8
LAYER1
  2
Group17
 10
0
 20
0
 30
0
  0
ENDBLK
  8
LAYER1
  0
BLOCK
  8
LAYER1
  2
Group19
 70
     0
 10
0
 20
0
 30
0
  0
TEXT
  8
LAYER1
 62
     7
 10
2.495
 20
0.0319
 30
0
 40
0.1389
  1
- 4-204 -
 50
0
999
Geneva
  0
LINE
  8
LAYER1
  6
CONTINUOUS
 62
     7
 10
0.1944
 20
10.8173
 30
0
 11
4.6944
 21
10.8173
 31
0
  0
TEXT
  8
LAYER1
 62
     7
 10
0.2311
 20
10.5735
 30
0
 40
0.125
  1
Structural Steel Tees - ANS M Tees
 50
0
999
Geneva
  0
TEXT
  8
LAYER1
 62
     7
 10
2.8561
 20
8.4902
 30
0
 40
0.0833
  1
MT 7x9
 50
0
999
Geneva
  0
TEXT
  8
LAYER1
 62
     7
 10
2.3561
 20
8.3096
 30
0
 40
0.0833
  1
M Shape Structural Tee
 50
0
999
Geneva
  0
INSERT
  8
LAYER1
  2
Group3
 10
0
 20
0
 30
0
  0
INSERT
  8
LAYER1
  2
Group6
 10
0
 20
0
 30
0
  0
TEXT
  8
LAYER1
 62
     7
 10
2.7867
 20
7.0041
 30
0
 40
0.0833
  1
MT 6x5.9
 50
0
999
Geneva
  0
TEXT
  8
LAYER1
 62
     7
 10
2.3561
 20
6.8235
 30
0
 40
0.0833
  1
M Shape Structural Tee
 50
0
999
Geneva
  0
INSERT
  8
LAYER1
  2
Group9
 10
0
 20
0
 30
0
  0
TEXT
  8
LAYER1
 62
     7
 10
2.7867
 20
5.6708
 30
0
 40
0.0833
  1
MT 5x4.5
 50
0
999
Geneva
  0
TEXT
  8
LAYER1
 62
     7
 10
2.3422
 20
5.4902
 30
0
 40
0.0833
  1
W Shape Structural TeM
 50
0
999
Geneva
  0
INSERT
  8
LAYER1
  2
Group12
 10
0
 20
0
 30
0
  0
TEXT
  8
LAYER1
 62
     7
 10
2.745
 20
4.1708
 30
0
 40
0.0833
  1
MT 4x3.25
 50
0
999
Geneva
  0
TEXT
  8
LAYER1
 62
     7
 10
2.3561
 20
3.9902
 30
0
 40
0.0833
  1
M Shape Structural Tee
 50
0
999
Geneva
  0
TEXT
  8
LAYER1
 62
     7
 10
2.7867
 20
2.9346
 30
0
 40
0.0833
  1
MT 3x2.2
 50
0
999
Geneva
  0
TEXT
  8
LAYER1
 62
     7
 10
2.3561
 20
2.7402
 30
0
 40
0.0833
  1
M Shape Structural Tee
 50
0
999
Geneva
  0
INSERT
  8
LAYER1
  2
Group15
 10
0
 20
0
 30
0
  0
INSERT
  8
LAYER1
  2
Group18
 10
0
 20
0
 30
0
  0
TEXT
  8
LAYER1
 62
     7
 10
2.6895
 20
1.7819
 30
0
 40
0.0833
  1
MT 2.5x9.45
 50
0
999
Geneva
  0
TEXT
  8
LAYER1
 62
     7
 10
2.3561
 20
1.6013
 30
0
 40
0.0833
  1
M Shape Structural Tee
 50
0
999
Geneva
  0
TEXT
  8
LAYER1
 62
     7
 10
4.9395
 20
0.2541
 30
0
 40
0.0833
  1
©1992
 50
0
999
Geneva
  0
TEXT
  8
LAYER1
 62
     7
 10
4.2311
 20
0.0874
 30
0
 40
0.0833
  1
Advanced System Design, Inc.
 50
0
999
Geneva
  0
TEXT
  8
LAYER1
 62
     7
 10
0.2311
 20
0.1013
 30
0
 40
0.0833
  1
Scale 1in = 1ft  Printed at 70%
 50
0
999
Geneva
  0
TEXT
  8
LAYER1
 62
     7
 10
2.8839
 20
8.0874
 30
0
 40
0.0833
  1
44800
 50
0
999
Geneva
  0
TEXT
  8
LAYER1
 62
     7
 10
2.8839
 20
6.6013
 30
0
 40
0.0833
  1
44801
 50
0
999
Geneva
  0
TEXT
  8
LAYER1
 62
     7
 10
2.8839
 20
5.2958
 30
0
 40
0.0833
  1
44802
 50
0
999
Geneva
  0
TEXT
  8
LAYER1
 62
     7
 10
2.8839
 20
3.7958
 30
0
 40
0.0833
  1
44803
 50
0
999
Geneva
  0
TEXT
  8
LAYER1
 62
     7
 10
2.8839
 20
2.5874
 30
0
 40
0.0833
  1
44804
 50
0
999
Geneva
  0
TEXT
  8
LAYER1
 62
     7
 10
2.8839
 20
1.393
 30
0
 40
0.0833
  1
44805
 50
0
999
Geneva
  0
ENDBLK
  8
LAYER1
  0
ENDSEC
  0
SECTION
  2
ENTITIES
  0
INSERT
  8
LAYER1
  2
Group19
 10
0
 20
0
 30
0
  0
ENDSEC
  0
EOF
